After Dark – Tito & Tarantula

Дата добавления: 12 февраля 2010
Количество просмотров: 16699

Тональность:
Вступление:
                                      E

E||---------------3---0-----------------|

H||---0---3---5-----------3-------------|

G||---------------------------2---0-----|

D||-------------------------------------|

A||-------------------------------------|

E||-------------------------------------|
4 раза:
      E            D             E           D

E||-------0------------2--2--2-------0-----------2---3-2---|

H||-------0------------3--3--3-------0-----------3-3-------|

G||-------1------------2--2--2-------1-----------2---------|

D||-----------2----0---0--0--0-----------2---0-------------|

A||--------------------------------------------------------|

E||---0--------------------------0-------------------------|
E
D
E
Watching  her

D
E
D
E
Strolling in the night   so white

D
A
Wondering why

B
E
It's only After Dark
E
  
D
  
E
  
D
  } 4 раза
In her eyes

A distant fire light burns bright

Wondering why

It's only After Dark
A
G
A
G
I find myself in her room

A
G
A
G
Feel the fever of my doom

H
A
H
A
Falling falling through the floor

H
A
H
I'm knocking on the Devils door
E
  
D
  
E
  
D
  } 4 раза
In the dark I wake up to find her gone

And the note – it's only after dark...
Burning burning in the flame

Now I know her secret name

You can tear her temple down

But she'll be back and rule again
In my heart

A deep and dark and lonely part

Wants her and waits for

E
F
G
H
After Dark  After Dark  After Dark After Daaaaark

After Dark

печать

E
D
A
B
G
H
Там, где идет 4-х кратное повторение аккордов E и D: три ноты друг под другом играются не одновременно, а щипком, 4 ноты играются вниз-вверх-вниз плавно, басы лучше играть с опорой.
Copyright © 2007-2010 akgitara.ru, по всем вопросам связывайтесь с администратором через форму